Помогите найти аккорды к песне Maria Group "Крила"

  • вот что подобралось (ритм думаю легко понять) :

    -----2-2-2---2-----------------------------
    -----3-3------3-------3-0------------------
    ---0-0------0--0----------0-0--------------
    --2--2-----2--------2-----2-1-------------0----
    ------------------3---------3-2----------2------
    ------------------------------------0-2-3--------

    -----2-2-2---2-----------------------------
    -----3-3------3-------3-0------------------
    ---0-0------0--0----------0-0--------------
    --2--2-----2--------2-----2-1-----------0--
    ------------------3---------3-2-------2------
    -------------------------------------------

    ну а в припеве такие аккордики:

    --0---0--2---------------------------------
    --3---0--3---------------------------------
    --0---4--0---------------------------------
    --2---4--2---------------------------------
    --3---2--2---------------------------------
    --х---х--0---------------------------------

    Источник: слух