как играть вот это я пол года играю на гитаре и не могу понять
|--0-3--3-0--5-3-5-3-5-3-5-3-5-7--|
|---------------------------------|
|---------------------------------|
|---------------------------------| II
|---------------------------------| раза
|---------------------------------|

|--0-3--------3-0--------5-3-5-3-5-3-5-3-5-7--------|
|-------0--0-------1--1------0-------0--------0--0--|
|-------0--0-------0--0------0-------0--------0--0--| II
|----------------------------------------5----------| раза
|-------------3----------0--------------------------|
|--0------------------------------------------------|

  • Это мелодия из фильма "Бумер" записаннаая в табулатуре. : линии-это струны, самая верхняя-первая струна (самая тонкая на гитаре) и т. д. Цифры на линейкках обозначают лад, который надо зажимать на данной струне. 0=открытая струна. А с какой скоростью это делать можно понять прослушав запись данного произведения. ВСЁ!
  • Не пойму на какой это гитаре ты играеш?? ?
    На виртуальной!!!! Или на марсианской???